ISO-10303-21;
HEADER;
FILE_DESCRIPTION (( 'STEP AP203' ),
    '1' );
FILE_NAME ('QB-CTZHWP-10-633-M.STEP',
    '2020-12-24T01:34:05',
    ( '' ),
    ( '' ),
    'SwSTEP 2.0',
    'SolidWorks 2020',
    '' );
FILE_SCHEMA (( 'CONFIG_CONTROL_DESIGN' ));
ENDSEC;

DATA;
#1 = CC_DESIGN_PERSON_AND_ORGANIZATION_ASSIGNMENT ( #188, #157, ( #247 ) ) ;
#2 = PERSON_AND_ORGANIZATION ( #91, #272 ) ;
#3 = VECTOR ( 'NONE', #40, 1000.000000000000000 ) ;
#4 = APPROVAL_PERSON_ORGANIZATION ( #13, #49, #125 ) ;
#5 = ORIENTED_EDGE ( 'NONE', *, *, #19, .F. ) ;
#6 = CARTESIAN_POINT ( 'NONE',  ( -1.614212418857619014, 0.000000000000000000, 0.000000000000000000 ) ) ;
#7 = ORIENTED_EDGE ( 'NONE', *, *, #232, .T. ) ;
#8 = DIRECTION ( 'NONE',  ( -1.000000000000000000, -0.000000000000000000, -0.000000000000000000 ) ) ;
#9 = CC_DESIGN_SECURITY_CLASSIFICATION ( #169, ( #247 ) ) ;
#10 = EDGE_CURVE ( 'NONE', #29, #111, #214, .T. ) ;
#11 = PRODUCT_RELATED_PRODUCT_CATEGORY ( 'detail', '', ( #290 ) ) ;
#12 = DIRECTION ( 'NONE',  ( -1.000000000000000000, -0.000000000000000000, -0.000000000000000000 ) ) ;
#13 = PERSON_AND_ORGANIZATION ( #91, #272 ) ;
#14 = DIRECTION ( 'NONE',  ( -1.000000000000000000, -0.000000000000000000, -0.000000000000000000 ) ) ;
#15 = FACE_OUTER_BOUND ( 'NONE', #292, .T. ) ;
#16 = DIRECTION ( 'NONE',  ( 1.000000000000000000, 0.000000000000000000, 0.000000000000000000 ) ) ;
#17 = LINE ( 'NONE', #76, #3 ) ;
#18 = DIRECTION ( 'NONE',  ( 0.000000000000000000, 0.000000000000000000, 1.000000000000000000 ) ) ;
#19 = EDGE_CURVE ( 'NONE', #316, #261, #30, .T. ) ;
#20 = DATE_AND_TIME ( #208, #233 ) ;
#21 = ORIENTED_EDGE ( 'NONE', *, *, #291, .T. ) ;
#22 = EDGE_LOOP ( 'NONE', ( #51, #334, #181, #5 ) ) ;
#23 = ADVANCED_FACE ( 'NONE', ( #60 ), #270, .T. ) ;
#24 = DATE_TIME_ROLE ( 'creation_date' ) ;
#25 = ADVANCED_BREP_SHAPE_REPRESENTATION ( 'QB-CTZHWP-10-633-M', ( #154, #107 ), #143 ) ;
#26 = PERSON_AND_ORGANIZATION ( #91, #272 ) ;
#27 = AXIS2_PLACEMENT_3D ( 'NONE', #43, #145, #46 ) ;
#28 = DATE_AND_TIME ( #256, #80 ) ;
#29 = VERTEX_POINT ( 'NONE', #112 ) ;
#30 = LINE ( 'NONE', #319, #271 ) ;
#31 = ORIENTED_EDGE ( 'NONE', *, *, #291, .F. ) ;
#32 = DIRECTION ( 'NONE',  ( 0.000000000000000000, 0.000000000000000000, 1.000000000000000000 ) ) ;
#33 = ADVANCED_FACE ( 'NONE', ( #268 ), #194, .F. ) ;
#34 = CC_DESIGN_APPROVAL ( #179, ( #247 ) ) ;
#35 = DIRECTION ( 'NONE',  ( -1.000000000000000000, -0.000000000000000000, -0.000000000000000000 ) ) ;
#36 = CARTESIAN_POINT ( 'NONE',  ( 0.000000000000000000, 0.000000000000000000, 0.000000000000000000 ) ) ;
#37 = CIRCLE ( 'NONE', #174, 5.000000000000000888 ) ;
#38 = CARTESIAN_POINT ( 'NONE',  ( -3.000000000000000000, 0.000000000000000000, 0.000000000000000000 ) ) ;
#39 = CARTESIAN_POINT ( 'NONE',  ( 3.000000000000000000, 0.000000000000000000, 0.000000000000000000 ) ) ;
#40 = DIRECTION ( 'NONE',  ( -1.000000000000000000, -0.000000000000000000, -0.000000000000000000 ) ) ;
#41 = CARTESIAN_POINT ( 'NONE',  ( -1.614212418857619014, 0.000000000000000000, 5.000000000000000888 ) ) ;
#42 = FACE_OUTER_BOUND ( 'NONE', #59, .T. ) ;
#43 = CARTESIAN_POINT ( 'NONE',  ( -1.614212418857619014, 0.000000000000000000, 0.000000000000000000 ) ) ;
#44 = DIRECTION ( 'NONE',  ( 1.000000000000000000, 0.000000000000000000, 0.000000000000000000 ) ) ;
#45 = AXIS2_PLACEMENT_3D ( 'NONE', #299, #248, #90 ) ;
#46 = DIRECTION ( 'NONE',  ( 0.000000000000000000, 0.000000000000000000, 1.000000000000000000 ) ) ;
#47 = CIRCLE ( 'NONE', #285, 5.000000000000001776 ) ;
#48 = EDGE_CURVE ( 'NONE', #243, #261, #203, .T. ) ;
#49 = APPROVAL ( #150, 'UNSPECIFIED' ) ;
#50 = EDGE_CURVE ( 'NONE', #261, #243, #113, .T. ) ;
#51 = ORIENTED_EDGE ( 'NONE', *, *, #110, .F. ) ;
#52 = APPROVAL_ROLE ( '' ) ;
#53 = AXIS2_PLACEMENT_3D ( 'NONE', #93, #201, #252 ) ;
#54 = CALENDAR_DATE ( 2020, 24, 12 ) ;
#55 = ORIENTED_EDGE ( 'NONE', *, *, #322, .T. ) ;
#56 = PERSON_AND_ORGANIZATION_ROLE ( 'creator' ) ;
#57 = EDGE_LOOP ( 'NONE', ( #130, #105, #21, #238 ) ) ;
#58 = DATE_AND_TIME ( #189, #140 ) ;
#59 = EDGE_LOOP ( 'NONE', ( #258, #241 ) ) ;
#60 = FACE_OUTER_BOUND ( 'NONE', #115, .T. ) ;
#61 = ORIENTED_EDGE ( 'NONE', *, *, #19, .T. ) ;
#62 = DIRECTION ( 'NONE',  ( -1.000000000000000000, -0.000000000000000000, -0.000000000000000000 ) ) ;
#63 = CLOSED_SHELL ( 'NONE', ( #23, #182, #33, #118, #255, #260, #135, #195, #131, #101 ) ) ;
#64 = CARTESIAN_POINT ( 'NONE',  ( -3.000000000000000000, 5.000000000000000000, 0.000000000000000000 ) ) ;
#65 = CARTESIAN_POINT ( 'NONE',  ( -1.614212418857619014, 0.000000000000000000, 0.000000000000000000 ) ) ;
#66 = DIRECTION ( 'NONE',  ( -1.000000000000000000, -0.000000000000000000, -0.000000000000000000 ) ) ;
#67 = CIRCLE ( 'NONE', #303, 5.000000000000001776 ) ;
#68 = CIRCLE ( 'NONE', #89, 5.000000000000000000 ) ;
#69 = DIRECTION ( 'NONE',  ( -1.000000000000000000, 0.000000000000000000, -0.000000000000000000 ) ) ;
#70 = CC_DESIGN_PERSON_AND_ORGANIZATION_ASSIGNMENT ( #327, #97, ( #290 ) ) ;
#71 = CARTESIAN_POINT ( 'NONE',  ( 3.000000000000000000, 0.000000000000000000, 0.000000000000000000 ) ) ;
#72 = EDGE_CURVE ( 'NONE', #29, #87, #117, .T. ) ;
#73 = CC_DESIGN_DATE_AND_TIME_ASSIGNMENT ( #28, #109, ( #169 ) ) ;
#74 = DIRECTION ( 'NONE',  ( 0.000000000000000000, 0.000000000000000000, 1.000000000000000000 ) ) ;
#75 = DIRECTION ( 'NONE',  ( -1.000000000000000000, -0.000000000000000000, -0.000000000000000000 ) ) ;
#76 = CARTESIAN_POINT ( 'NONE',  ( -1.614212418857619014, 6.123233995736767268E-16, -5.000000000000000888 ) ) ;
#77 = MECHANICAL_CONTEXT ( 'NONE', #332, 'mechanical' ) ;
#78 = EDGE_CURVE ( 'NONE', #160, #79, #37, .T. ) ;
#79 = VERTEX_POINT ( 'NONE', #126 ) ;
#80 = LOCAL_TIME ( 9, 34, 5.000000000000000000, #81 ) ;
#81 = COORDINATED_UNIVERSAL_TIME_OFFSET ( 8, 0, .AHEAD. ) ;
#82 = ORIENTED_EDGE ( 'NONE', *, *, #218, .F. ) ;
#83 = CALENDAR_DATE ( 2020, 24, 12 ) ;
#84 = PERSON_AND_ORGANIZATION ( #91, #272 ) ;
#85 = ORIENTED_EDGE ( 'NONE', *, *, #161, .T. ) ;
#86 = DIRECTION ( 'NONE',  ( 0.000000000000000000, 0.000000000000000000, 1.000000000000000000 ) ) ;
#87 = VERTEX_POINT ( 'NONE', #148 ) ;
#88 = CARTESIAN_POINT ( 'NONE',  ( 3.000000000000000000, 0.000000000000000000, 0.000000000000000000 ) ) ;
#89 = AXIS2_PLACEMENT_3D ( 'NONE', #38, #324, #94 ) ;
#90 = DIRECTION ( 'NONE',  ( -0.000000000000000000, 0.000000000000000000, 1.000000000000000000 ) ) ;
#91 = PERSON ( 'UNSPECIFIED', 'UNSPECIFIED', 'UNSPECIFIED', ('UNSPECIFIED'), ('UNSPECIFIED'), ('UNSPECIFIED') ) ;
#92 = DIRECTION ( 'NONE',  ( -0.000000000000000000, 0.000000000000000000, 1.000000000000000000 ) ) ;
#93 = CARTESIAN_POINT ( 'NONE',  ( -1.614212418857619014, 0.000000000000000000, 0.000000000000000000 ) ) ;
#94 = DIRECTION ( 'NONE',  ( 0.000000000000000000, 0.000000000000000000, 1.000000000000000000 ) ) ;
#95 = LOCAL_TIME ( 9, 34, 5.000000000000000000, #205 ) ;
#96 = FACE_OUTER_BOUND ( 'NONE', #293, .T. ) ;
#97 = PERSON_AND_ORGANIZATION_ROLE ( 'design_owner' ) ;
#98 = DIRECTION ( 'NONE',  ( -1.000000000000000000, -0.000000000000000000, -0.000000000000000000 ) ) ;
#99 = FACE_BOUND ( 'NONE', #193, .T. ) ;
#100 = DIRECTION ( 'NONE',  ( -1.000000000000000000, -0.000000000000000000, -0.000000000000000000 ) ) ;
#101 = ADVANCED_FACE ( 'NONE', ( #42 ), #307, .F. ) ;
#102 = APPROVAL_PERSON_ORGANIZATION ( #163, #179, #52 ) ;
#103 = DESIGN_CONTEXT ( 'detailed design', #278, 'design' ) ;
#104 = ORIENTED_EDGE ( 'NONE', *, *, #289, .T. ) ;
#105 = ORIENTED_EDGE ( 'NONE', *, *, #218, .T. ) ;
#106 = AXIS2_PLACEMENT_3D ( 'NONE', #64, #298, #207 ) ;
#107 = AXIS2_PLACEMENT_3D ( 'NONE', #36, #225, #44 ) ;
#108 = APPROVAL_STATUS ( 'not_yet_approved' ) ;
#109 = DATE_TIME_ROLE ( 'classification_date' ) ;
#110 = EDGE_CURVE ( 'NONE', #220, #316, #67, .T. ) ;
#111 = VERTEX_POINT ( 'NONE', #172 ) ;
#112 = CARTESIAN_POINT ( 'NONE',  ( 3.000000000000000000, 1.555301434917138433E-15, -12.69999999999999929 ) ) ;
#113 = CIRCLE ( 'NONE', #219, 5.000000000000000000 ) ;
#114 = LOCAL_TIME ( 9, 34, 5.000000000000000000, #262 ) ;
#115 = EDGE_LOOP ( 'NONE', ( #85, #295, #165, #190 ) ) ;
#116 = DIRECTION ( 'NONE',  ( -1.000000000000000000, -0.000000000000000000, -0.000000000000000000 ) ) ;
#117 = CIRCLE ( 'NONE', #304, 12.69999999999999929 ) ;
#118 = ADVANCED_FACE ( 'NONE', ( #279 ), #321, .F. ) ;
#119 = APPROVAL_PERSON_ORGANIZATION ( #84, #310, #129 ) ;
#120 = PLANE ( 'NONE',  #45 ) ;
#121 = CC_DESIGN_PERSON_AND_ORGANIZATION_ASSIGNMENT ( #2, #212, ( #280 ) ) ;
#122 = CARTESIAN_POINT ( 'NONE',  ( 3.000000000000000000, 6.123233995736768255E-16, -5.000000000000001776 ) ) ;
#123 =( NAMED_UNIT ( * ) SI_UNIT ( $, .STERADIAN. ) SOLID_ANGLE_UNIT ( ) );
#124 = CARTESIAN_POINT ( 'NONE',  ( 3.000000000000000000, 0.000000000000000000, 0.000000000000000000 ) ) ;
#125 = APPROVAL_ROLE ( '' ) ;
#126 = CARTESIAN_POINT ( 'NONE',  ( -1.250000000000000222, 6.123233995736767268E-16, -5.000000000000000888 ) ) ;
#127 = DIRECTION ( 'NONE',  ( -1.000000000000000000, -0.000000000000000000, -0.000000000000000000 ) ) ;
#128 = DIRECTION ( 'NONE',  ( 0.000000000000000000, 0.000000000000000000, 1.000000000000000000 ) ) ;
#129 = APPROVAL_ROLE ( '' ) ;
#130 = ORIENTED_EDGE ( 'NONE', *, *, #78, .T. ) ;
#131 = ADVANCED_FACE ( 'NONE', ( #15, #175 ), #120, .F. ) ;
#132 = APPROVAL_DATE_TIME ( #183, #179 ) ;
#133 = ORIENTED_EDGE ( 'NONE', *, *, #228, .F. ) ;
#134 = VECTOR ( 'NONE', #12, 1000.000000000000000 ) ;
#135 = ADVANCED_FACE ( 'NONE', ( #99, #200 ), #249, .F. ) ;
#136 = VERTEX_POINT ( 'NONE', #302 ) ;
#137 = DIRECTION ( 'NONE',  ( -1.000000000000000000, -0.000000000000000000, -0.000000000000000000 ) ) ;
#138 = ORIENTED_EDGE ( 'NONE', *, *, #267, .F. ) ;
#139 = CARTESIAN_POINT ( 'NONE',  ( 1.250000000000000444, 0.000000000000000000, 0.000000000000000000 ) ) ;
#140 = LOCAL_TIME ( 9, 34, 5.000000000000000000, #259 ) ;
#141 = CARTESIAN_POINT ( 'NONE',  ( -1.614212418857619014, 6.123233995736767268E-16, -5.000000000000000888 ) ) ;
#142 = FACE_OUTER_BOUND ( 'NONE', #283, .T. ) ;
#143 =( GEOMETRIC_REPRESENTATION_CONTEXT ( 3 ) GLOBAL_UNCERTAINTY_ASSIGNED_CONTEXT ( ( #311 ) ) GLOBAL_UNIT_ASSIGNED_CONTEXT ( ( #173, #178, #123 ) ) REPRESENTATION_CONTEXT ( 'NONE', 'WORKASPACE' ) );
#144 = DIRECTION ( 'NONE',  ( -1.000000000000000000, -0.000000000000000000, -0.000000000000000000 ) ) ;
#145 = DIRECTION ( 'NONE',  ( -1.000000000000000000, -0.000000000000000000, -0.000000000000000000 ) ) ;
#146 = FACE_OUTER_BOUND ( 'NONE', #57, .T. ) ;
#147 = APPLICATION_PROTOCOL_DEFINITION ( 'international standard', 'config_control_design', 1994, #278 ) ;
#148 = CARTESIAN_POINT ( 'NONE',  ( 3.000000000000000000, 0.000000000000000000, 12.69999999999999929 ) ) ;
#149 = CYLINDRICAL_SURFACE ( 'NONE', #282, 12.69999999999999929 ) ;
#150 = APPROVAL_STATUS ( 'not_yet_approved' ) ;
#151 = CIRCLE ( 'NONE', #164, 12.69999999999999929 ) ;
#152 = CARTESIAN_POINT ( 'NONE',  ( 1.250000000000000444, 0.000000000000000000, 5.000000000000000000 ) ) ;
#153 = PERSON_AND_ORGANIZATION ( #91, #272 ) ;
#154 = MANIFOLD_SOLID_BREP ( 'Ðý×', #63 ) ;
#155 = AXIS2_PLACEMENT_3D ( 'NONE', #246, #69, #92 ) ;
#156 = CC_DESIGN_PERSON_AND_ORGANIZATION_ASSIGNMENT ( #26, #265, ( #169 ) ) ;
#157 = PERSON_AND_ORGANIZATION_ROLE ( 'design_supplier' ) ;
#158 = ORIENTED_EDGE ( 'NONE', *, *, #199, .F. ) ;
#159 = DATE_AND_TIME ( #54, #95 ) ;
#160 = VERTEX_POINT ( 'NONE', #170 ) ;
#161 = EDGE_CURVE ( 'NONE', #87, #29, #253, .T. ) ;
#162 = PRODUCT_DEFINITION_SHAPE ( 'NONE', 'NONE',  #280 ) ;
#163 = PERSON_AND_ORGANIZATION ( #91, #272 ) ;
#164 = AXIS2_PLACEMENT_3D ( 'NONE', #325, #223, #128 ) ;
#165 = ORIENTED_EDGE ( 'NONE', *, *, #289, .F. ) ;
#166 = DIRECTION ( 'NONE',  ( 0.000000000000000000, 0.000000000000000000, 1.000000000000000000 ) ) ;
#167 = ORIENTED_EDGE ( 'NONE', *, *, #50, .T. ) ;
#168 = ORIENTED_EDGE ( 'NONE', *, *, #72, .T. ) ;
#169 = SECURITY_CLASSIFICATION ( '', '', #239 ) ;
#170 = CARTESIAN_POINT ( 'NONE',  ( -1.250000000000000222, 0.000000000000000000, 5.000000000000000888 ) ) ;
#171 = EDGE_CURVE ( 'NONE', #79, #160, #320, .T. ) ;
#172 = CARTESIAN_POINT ( 'NONE',  ( -3.000000000000000000, 1.555301434917138433E-15, -12.69999999999999929 ) ) ;
#173 =( LENGTH_UNIT ( ) NAMED_UNIT ( * ) SI_UNIT ( .MILLI., .METRE. ) );
#174 = AXIS2_PLACEMENT_3D ( 'NONE', #176, #277, #206 ) ;
#175 = FACE_BOUND ( 'NONE', #263, .T. ) ;
#176 = CARTESIAN_POINT ( 'NONE',  ( -1.250000000000000222, 0.000000000000000000, 0.000000000000000000 ) ) ;
#177 = DIRECTION ( 'NONE',  ( 0.000000000000000000, 0.000000000000000000, 1.000000000000000000 ) ) ;
#178 =( NAMED_UNIT ( * ) PLANE_ANGLE_UNIT ( ) SI_UNIT ( $, .RADIAN. ) );
#179 = APPROVAL ( #108, 'UNSPECIFIED' ) ;
#180 = DIRECTION ( 'NONE',  ( 0.000000000000000000, 0.000000000000000000, 1.000000000000000000 ) ) ;
#181 = ORIENTED_EDGE ( 'NONE', *, *, #48, .T. ) ;
#182 = ADVANCED_FACE ( 'NONE', ( #146 ), #276, .F. ) ;
#183 = DATE_AND_TIME ( #83, #114 ) ;
#184 = VECTOR ( 'NONE', #8, 1000.000000000000000 ) ;
#185 = CIRCLE ( 'NONE', #312, 12.69999999999999929 ) ;
#186 = ORIENTED_EDGE ( 'NONE', *, *, #110, .T. ) ;
#187 = VERTEX_POINT ( 'NONE', #329 ) ;
#188 = PERSON_AND_ORGANIZATION ( #91, #272 ) ;
#189 = CALENDAR_DATE ( 2020, 24, 12 ) ;
#190 = ORIENTED_EDGE ( 'NONE', *, *, #232, .F. ) ;
#191 = DIRECTION ( 'NONE',  ( -1.000000000000000000, -0.000000000000000000, -0.000000000000000000 ) ) ;
#192 = AXIS2_PLACEMENT_3D ( 'NONE', #242, #137, #166 ) ;
#193 = EDGE_LOOP ( 'NONE', ( #133, #31 ) ) ;
#194 = CYLINDRICAL_SURFACE ( 'NONE', #257, 5.000000000000000888 ) ;
#195 = ADVANCED_FACE ( 'NONE', ( #222 ), #149, .T. ) ;
#196 = AXIS2_PLACEMENT_3D ( 'NONE', #230, #251, #224 ) ;
#197 = AXIS2_PLACEMENT_3D ( 'NONE', #323, #100, #180 ) ;
#198 = DIRECTION ( 'NONE',  ( 0.000000000000000000, 0.000000000000000000, 1.000000000000000000 ) ) ;
#199 = EDGE_CURVE ( 'NONE', #220, #243, #17, .T. ) ;
#200 = FACE_OUTER_BOUND ( 'NONE', #210, .T. ) ;
#201 = DIRECTION ( 'NONE',  ( -1.000000000000000000, -0.000000000000000000, -0.000000000000000000 ) ) ;
#202 = CARTESIAN_POINT ( 'NONE',  ( -1.614212418857619014, 0.000000000000000000, 12.69999999999999929 ) ) ;
#203 = CIRCLE ( 'NONE', #234, 5.000000000000000000 ) ;
#204 = CARTESIAN_POINT ( 'NONE',  ( 1.250000000000000444, 6.123233995736766282E-16, -5.000000000000000000 ) ) ;
#205 = COORDINATED_UNIVERSAL_TIME_OFFSET ( 8, 0, .AHEAD. ) ;
#206 = DIRECTION ( 'NONE',  ( 0.000000000000000000, 0.000000000000000000, -1.000000000000000000 ) ) ;
#207 = DIRECTION ( 'NONE',  ( 0.000000000000000000, 0.000000000000000000, -1.000000000000000000 ) ) ;
#208 = CALENDAR_DATE ( 2020, 24, 12 ) ;
#209 = ORIENTED_EDGE ( 'NONE', *, *, #10, .F. ) ;
#210 = EDGE_LOOP ( 'NONE', ( #104, #269 ) ) ;
#211 = APPROVAL_STATUS ( 'not_yet_approved' ) ;
#212 = PERSON_AND_ORGANIZATION_ROLE ( 'creator' ) ;
#213 = ORIENTED_EDGE ( 'NONE', *, *, #161, .F. ) ;
#214 = LINE ( 'NONE', #317, #184 ) ;
#215 = ORIENTED_EDGE ( 'NONE', *, *, #50, .F. ) ;
#216 = DIRECTION ( 'NONE',  ( -1.000000000000000000, -0.000000000000000000, -0.000000000000000000 ) ) ;
#217 = AXIS2_PLACEMENT_3D ( 'NONE', #250, #16, #229 ) ;
#218 = EDGE_CURVE ( 'NONE', #79, #187, #274, .T. ) ;
#219 = AXIS2_PLACEMENT_3D ( 'NONE', #139, #191, #86 ) ;
#220 = VERTEX_POINT ( 'NONE', #122 ) ;
#221 = CARTESIAN_POINT ( 'NONE',  ( 1.250000000000000444, 0.000000000000000000, 0.000000000000000000 ) ) ;
#222 = FACE_OUTER_BOUND ( 'NONE', #313, .T. ) ;
#223 = DIRECTION ( 'NONE',  ( -1.000000000000000000, -0.000000000000000000, -0.000000000000000000 ) ) ;
#224 = DIRECTION ( 'NONE',  ( 0.000000000000000000, 0.000000000000000000, -1.000000000000000000 ) ) ;
#225 = DIRECTION ( 'NONE',  ( 0.000000000000000000, 0.000000000000000000, 1.000000000000000000 ) ) ;
#226 = LINE ( 'NONE', #202, #245 ) ;
#227 = CARTESIAN_POINT ( 'NONE',  ( 3.000000000000000000, 0.000000000000000000, 5.000000000000001776 ) ) ;
#228 = EDGE_CURVE ( 'NONE', #335, #187, #68, .T. ) ;
#229 = DIRECTION ( 'NONE',  ( 0.000000000000000000, 0.000000000000000000, -1.000000000000000000 ) ) ;
#230 = CARTESIAN_POINT ( 'NONE',  ( -1.250000000000000222, 0.000000000000000000, 0.000000000000000000 ) ) ;
#231 = CARTESIAN_POINT ( 'NONE',  ( -3.000000000000000000, 0.000000000000000000, 0.000000000000000000 ) ) ;
#232 = EDGE_CURVE ( 'NONE', #87, #136, #226, .T. ) ;
#233 = LOCAL_TIME ( 9, 34, 5.000000000000000000, #284 ) ;
#234 = AXIS2_PLACEMENT_3D ( 'NONE', #221, #62, #32 ) ;
#235 = SHAPE_DEFINITION_REPRESENTATION ( #162, #25 ) ;
#236 = ORIENTED_EDGE ( 'NONE', *, *, #48, .F. ) ;
#237 = APPROVAL_DATE_TIME ( #58, #310 ) ;
#238 = ORIENTED_EDGE ( 'NONE', *, *, #301, .F. ) ;
#239 = SECURITY_CLASSIFICATION_LEVEL ( 'unclassified' ) ;
#240 = AXIS2_PLACEMENT_3D ( 'NONE', #65, #144, #177 ) ;
#241 = ORIENTED_EDGE ( 'NONE', *, *, #171, .F. ) ;
#242 = CARTESIAN_POINT ( 'NONE',  ( -1.614212418857619014, 0.000000000000000000, 0.000000000000000000 ) ) ;
#243 = VERTEX_POINT ( 'NONE', #204 ) ;
#244 = ORIENTED_EDGE ( 'NONE', *, *, #171, .T. ) ;
#245 = VECTOR ( 'NONE', #326, 1000.000000000000000 ) ;
#246 = CARTESIAN_POINT ( 'NONE',  ( 1.250000000000000222, 5.000000000000000000, 0.000000000000000000 ) ) ;
#247 = PRODUCT_DEFINITION_FORMATION_WITH_SPECIFIED_SOURCE ( 'ANY', '', #290, .NOT_KNOWN. ) ;
#248 = DIRECTION ( 'NONE',  ( -1.000000000000000000, 0.000000000000000000, -0.000000000000000000 ) ) ;
#249 = PLANE ( 'NONE',  #106 ) ;
#250 = CARTESIAN_POINT ( 'NONE',  ( -1.250000000000000222, 5.000000000000000000, 0.000000000000000000 ) ) ;
#251 = DIRECTION ( 'NONE',  ( 1.000000000000000000, 0.000000000000000000, 0.000000000000000000 ) ) ;
#252 = DIRECTION ( 'NONE',  ( 0.000000000000000000, 0.000000000000000000, 1.000000000000000000 ) ) ;
#253 = CIRCLE ( 'NONE', #297, 12.69999999999999929 ) ;
#254 = CYLINDRICAL_SURFACE ( 'NONE', #53, 5.000000000000000888 ) ;
#255 = ADVANCED_FACE ( 'NONE', ( #96 ), #305, .F. ) ;
#256 = CALENDAR_DATE ( 2020, 24, 12 ) ;
#257 = AXIS2_PLACEMENT_3D ( 'NONE', #6, #216, #296 ) ;
#258 = ORIENTED_EDGE ( 'NONE', *, *, #78, .F. ) ;
#259 = COORDINATED_UNIVERSAL_TIME_OFFSET ( 8, 0, .AHEAD. ) ;
#260 = ADVANCED_FACE ( 'NONE', ( #142 ), #254, .F. ) ;
#261 = VERTEX_POINT ( 'NONE', #152 ) ;
#262 = COORDINATED_UNIVERSAL_TIME_OFFSET ( 8, 0, .AHEAD. ) ;
#263 = EDGE_LOOP ( 'NONE', ( #55, #186 ) ) ;
#264 = CC_DESIGN_DATE_AND_TIME_ASSIGNMENT ( #20, #24, ( #280 ) ) ;
#265 = PERSON_AND_ORGANIZATION_ROLE ( 'classification_officer' ) ;
#266 = ORIENTED_EDGE ( 'NONE', *, *, #228, .T. ) ;
#267 = EDGE_CURVE ( 'NONE', #111, #136, #185, .T. ) ;
#268 = FACE_OUTER_BOUND ( 'NONE', #22, .T. ) ;
#269 = ORIENTED_EDGE ( 'NONE', *, *, #267, .T. ) ;
#270 = CYLINDRICAL_SURFACE ( 'NONE', #192, 12.69999999999999929 ) ;
#271 = VECTOR ( 'NONE', #116, 1000.000000000000000 ) ;
#272 = ORGANIZATION ( 'UNSPECIFIED', 'UNSPECIFIED', '' ) ;
#273 = CARTESIAN_POINT ( 'NONE',  ( -1.614212418857619014, 0.000000000000000000, 0.000000000000000000 ) ) ;
#274 = LINE ( 'NONE', #141, #134 ) ;
#275 = CC_DESIGN_APPROVAL ( #310, ( #169 ) ) ;
#276 = CYLINDRICAL_SURFACE ( 'NONE', #240, 5.000000000000000888 ) ;
#277 = DIRECTION ( 'NONE',  ( 1.000000000000000000, 0.000000000000000000, 0.000000000000000000 ) ) ;
#278 = APPLICATION_CONTEXT ( 'configuration controlled 3d designs of mechanical parts and assemblies' ) ;
#279 = FACE_OUTER_BOUND ( 'NONE', #286, .T. ) ;
#280 = PRODUCT_DEFINITION ( 'UNKNOWN', '', #247, #103 ) ;
#281 = APPLICATION_PROTOCOL_DEFINITION ( 'international standard', 'config_control_design', 1994, #332 ) ;
#282 = AXIS2_PLACEMENT_3D ( 'NONE', #273, #14, #74 ) ;
#283 = EDGE_LOOP ( 'NONE', ( #82, #244, #318, #266 ) ) ;
#284 = COORDINATED_UNIVERSAL_TIME_OFFSET ( 8, 0, .AHEAD. ) ;
#285 = AXIS2_PLACEMENT_3D ( 'NONE', #39, #75, #306 ) ;
#286 = EDGE_LOOP ( 'NONE', ( #215, #236 ) ) ;
#287 = ORIENTED_EDGE ( 'NONE', *, *, #72, .F. ) ;
#288 = APPROVAL_DATE_TIME ( #159, #49 ) ;
#289 = EDGE_CURVE ( 'NONE', #136, #111, #151, .T. ) ;
#290 = PRODUCT ( 'QB-CTZHWP-10-633-M', 'QB-CTZHWP-10-633-M', '', ( #77 ) ) ;
#291 = EDGE_CURVE ( 'NONE', #187, #335, #294, .T. ) ;
#292 = EDGE_LOOP ( 'NONE', ( #213, #287 ) ) ;
#293 = EDGE_LOOP ( 'NONE', ( #158, #315, #61, #167 ) ) ;
#294 = CIRCLE ( 'NONE', #197, 5.000000000000000000 ) ;
#295 = ORIENTED_EDGE ( 'NONE', *, *, #10, .T. ) ;
#296 = DIRECTION ( 'NONE',  ( 0.000000000000000000, 0.000000000000000000, 1.000000000000000000 ) ) ;
#297 = AXIS2_PLACEMENT_3D ( 'NONE', #124, #127, #308 ) ;
#298 = DIRECTION ( 'NONE',  ( 1.000000000000000000, 0.000000000000000000, 0.000000000000000000 ) ) ;
#299 = CARTESIAN_POINT ( 'NONE',  ( 3.000000000000000000, 12.69999999999999929, 0.000000000000000000 ) ) ;
#300 = LINE ( 'NONE', #41, #314 ) ;
#301 = EDGE_CURVE ( 'NONE', #160, #335, #300, .T. ) ;
#302 = CARTESIAN_POINT ( 'NONE',  ( -3.000000000000000000, 0.000000000000000000, 12.69999999999999929 ) ) ;
#303 = AXIS2_PLACEMENT_3D ( 'NONE', #71, #35, #198 ) ;
#304 = AXIS2_PLACEMENT_3D ( 'NONE', #88, #98, #328 ) ;
#305 = CYLINDRICAL_SURFACE ( 'NONE', #27, 5.000000000000000888 ) ;
#306 = DIRECTION ( 'NONE',  ( 0.000000000000000000, 0.000000000000000000, 1.000000000000000000 ) ) ;
#307 = PLANE ( 'NONE',  #217 ) ;
#308 = DIRECTION ( 'NONE',  ( 0.000000000000000000, 0.000000000000000000, 1.000000000000000000 ) ) ;
#309 = DIRECTION ( 'NONE',  ( -1.000000000000000000, -0.000000000000000000, -0.000000000000000000 ) ) ;
#310 = APPROVAL ( #211, 'UNSPECIFIED' ) ;
#311 = UNCERTAINTY_MEASURE_WITH_UNIT (LENGTH_MEASURE( 1.000000000000000082E-05 ), #173, 'distance_accuracy_value', 'NONE');
#312 = AXIS2_PLACEMENT_3D ( 'NONE', #231, #309, #18 ) ;
#313 = EDGE_LOOP ( 'NONE', ( #209, #168, #7, #138 ) ) ;
#314 = VECTOR ( 'NONE', #66, 1000.000000000000000 ) ;
#315 = ORIENTED_EDGE ( 'NONE', *, *, #322, .F. ) ;
#316 = VERTEX_POINT ( 'NONE', #227 ) ;
#317 = CARTESIAN_POINT ( 'NONE',  ( -1.614212418857619014, 1.555301434917138433E-15, -12.69999999999999929 ) ) ;
#318 = ORIENTED_EDGE ( 'NONE', *, *, #301, .T. ) ;
#319 = CARTESIAN_POINT ( 'NONE',  ( -1.614212418857619014, 0.000000000000000000, 5.000000000000000888 ) ) ;
#320 = CIRCLE ( 'NONE', #196, 5.000000000000000888 ) ;
#321 = PLANE ( 'NONE',  #155 ) ;
#322 = EDGE_CURVE ( 'NONE', #316, #220, #47, .T. ) ;
#323 = CARTESIAN_POINT ( 'NONE',  ( -3.000000000000000000, 0.000000000000000000, 0.000000000000000000 ) ) ;
#324 = DIRECTION ( 'NONE',  ( -1.000000000000000000, -0.000000000000000000, -0.000000000000000000 ) ) ;
#325 = CARTESIAN_POINT ( 'NONE',  ( -3.000000000000000000, 0.000000000000000000, 0.000000000000000000 ) ) ;
#326 = DIRECTION ( 'NONE',  ( -1.000000000000000000, -0.000000000000000000, -0.000000000000000000 ) ) ;
#327 = PERSON_AND_ORGANIZATION ( #91, #272 ) ;
#328 = DIRECTION ( 'NONE',  ( 0.000000000000000000, 0.000000000000000000, 1.000000000000000000 ) ) ;
#329 = CARTESIAN_POINT ( 'NONE',  ( -3.000000000000000000, 6.123233995736766282E-16, -5.000000000000000000 ) ) ;
#330 = CARTESIAN_POINT ( 'NONE',  ( -3.000000000000000000, 0.000000000000000000, 5.000000000000000000 ) ) ;
#331 = CC_DESIGN_PERSON_AND_ORGANIZATION_ASSIGNMENT ( #153, #56, ( #247 ) ) ;
#332 = APPLICATION_CONTEXT ( 'configuration controlled 3d designs of mechanical parts and assemblies' ) ;
#333 = CC_DESIGN_APPROVAL ( #49, ( #280 ) ) ;
#334 = ORIENTED_EDGE ( 'NONE', *, *, #199, .T. ) ;
#335 = VERTEX_POINT ( 'NONE', #330 ) ;
ENDSEC;
END-ISO-10303-21;
